위치:처음으로 | Catatonia 가사집 | Do You Believe in Me 노래 가사

Do You Believe in Me 노래 가사


아티스트(예술가) Catatonia

노래 가사 번역(한국어 번역)
SPONSORED
I’m andy cole’s tortured soul lost out again in front of goal
I wish I had your cocaine confidence
Some girls are easier on the eye but could you take the silent lives
I wish I had your full on arrogance
But I’m a white witch, mad bitch, hooked on drugs the jury’s out, the lawyer shrugs
The angel on my shoulder falls asleep
Do you believe in me or are you leaving me
Do you believe in me or are you leaving me
I thought I was columbus, turns out antarctic scott
And I always ate my friends along the way
But don’t ask about the reasons nor reason with my aims
The closer you’ll appear the less I’ll say
Do you believe in me or are you leaving me
Do you believe in me or are you leaving me
Do you believe in me or are you leaving me
Do you believe in me or are you leaving me
Silent fool but give me time and I might prove, I could do anything I choose
I’m andy cole’s tortured soul lost out again in front of goal
I wish I had your cocaine confidence
But I’m a white witch, mad bitch, hooked on drugs the jury’s out, the lawyer shrugs
And all the wine you had just left me sober
Do you believe in me or are you leaving me
Do you believe in me or are you leaving me
Do you believe in me or are you leaving me
Do you believe in me or are you leaving me
Do you believe in me or are you leaving me
(drink puts the angel on my shoulder to sleep)
Do you believe in me or are you leaving me
(drink puts the angel on my shoulder to sleep)
Do you believe in me or are you leaving me . . .
(drink puts the angel on my shoulder to sleep)
Drink puts the angel on my shoulder to sleep x 2
Drink puts the angel on my shoulder to sleep x 2
Drink puts the angel on my shoulder to sleep x 2, etc.
Drink puts the angel on my shoulder to sleep
Drink puts the angel on my shoulder to sleep
Drink puts . . .

Guitar break at 2:09

E ----------------------------------------------------6----------------------------------
B -------------------------------------7--9--7--9----------9--7---------9----------------
G ----------------8----------------------------------------------------------8--16-------
D -----------11--------11--9-------------------------------6-6-8-8-6-6-4-6-6-8-8-6-6-4-2-
A 11-s-6-9-s-11-9-11-s-6-9-s-4-4-6-6-4-4-2-4-4-6-6-4-4-2-4-------------------------------
E ---------------------------------------------------------------------------------------

E --------------------------------------------------------------------------------------
B --------------------------------------------------------------------------------------
G --------------------------------------------------------------------------------------
D --------------------------------------------------------------------------------------
A -6-2-4-2-4-2-4-2-4-2-4-2-4-2-4-2-1----------------------------------------------------
E -----------------------------------4--------------------------------------------------

Well, something like that.......

Guitar break at 3:05
G#m/g# g#m/d# g#m/b g#m/a# g#m
E -------------------------------------------------------6-----------------------------
B -------------------------------------7--9--7--9----------9--7---------9--------------
G 8--9--8---------8----------------------------------------------------------8--16-----
D -----------11--------11--9-----------------------------------------------------------
A -------------------------------------------------------------------------------------
E -------------------------------------------------------------------------------------

참고 : 연구 및 참조에 대한 자동 번역
SPONSORED

당신은 내가 믿는 노래 가사 (Do You Believe in Me 노래 가사 번역(한국어 번역))



나는 다시 목표의 앞에 밖으로 분실 하는 앤디 콜의 고문된 영혼
내가 당신의 코카인 자신감 있었으면 좋 겠
어떤 여 자들은 눈에 쉽게 하지만 침묵 생활을 걸릴 수 있습니다.
오만에 귀하의 전체가 있었으면 좋겠다
그러나 나는 하얀 마녀, 배 심원 단의 아웃, 변호사 어깨를 쓱 하는 마약에 푹 미친 암 캐
내 어깨에 천사 잠이
당신은 내가 믿는 또는 당신이 나를 떠나고 있다
당신은 내가 믿는 또는 당신이 나를 떠나고 있다
콜럼버스는 하, 남극 스콧 밝혀 줄 알았는데
난 항상 내 친구 길 따라 먹고
그러나 이유에 대해 물어 하지 않습니다도 내는 것을 목표로 함께 이유
당신이 덜 난 말할 거 야 가까이 표시
당신은 내가 믿는 또는 당신이 나를 떠나고 있다
당신은 내가 믿는 또는 당신이 나를 떠나고 있다
당신은 내가 믿는 또는 당신이 나를 떠나고 있다
당신은 내가 믿는 또는 당신이 나를 떠나고 있다
침묵 바보 하지만 내게 시간을 줄 및 선택 무엇이 든을 할 수 있는 내가 증명할 수도
나는 다시 목표의 앞에 밖으로 분실 하는 앤디 콜의 고문된 영혼
내가 당신의 코카인 자신감 있었으면 좋 겠
그러나 나는 하얀 마녀, 배 심원 단의 아웃, 변호사 어깨를 쓱 하는 마약에 푹 미친 암 캐
그리고 당신은 단지 떠났다 나 술을 깨 게 하는 모든 와인
당신은 내가 믿는 또는 당신이 나를 떠나고 있다
당신은 내가 믿는 또는 당신이 나를 떠나고 있다
당신은 내가 믿는 또는 당신이 나를 떠나고 있다
당신은 내가 믿는 또는 당신이 나를 떠나고 있다
당신은 내가 믿는 또는 당신이 나를 떠나고 있다
(음료는 천사 잠을 내 어깨에 박 았)
당신은 내가 믿는 또는 당신이 나를 떠나고 있다
(음료는 천사 잠을 내 어깨에 박 았)
당신은 내가 믿는 또는 당신이 나를 떠나고 있다...
(음료는 천사 잠을 내 어깨에 박 았)
음료는 x 2 잠을 내 어깨에 천사를 박 았
음료는 x 2 잠을 내 어깨에 천사를 박 았
음료 등 천사 자 x 2 내 어깨에 박 았.
음료는 잠을 내 어깨에 천사를 박 았
음료는 잠을 내 어깨에 천사를 박 았
박 았 마시는...

2시 09분에 기타 나누기

E ----------------------------------------------------6----------------------------------
B -------------------------------------7--9--7--9----------9--7---------9----------------
G ----------------8----------------------------------------------------------8--16-------
D-----------11--------11--9-------------------------------6-6-8-8-6-6-4-6-6-8-8-6-6-4-2-
11-S-6-9-s-11-9-11-s-6-9-s-4-4-6-6-4-4-2-4-4-6-6-4-4-2-4-------------------------------
E ---------------------------------------------------------------------------------------

E --------------------------------------------------------------------------------------
B --------------------------------------------------------------------------------------
G --------------------------------------------------------------------------------------
D --------------------------------------------------------------------------------------
-6-2-4-2-4-2-4-2-4-2-4-2-4-2-4-2-1----------------------------------------------------
E -----------------------------------4--------------------------------------------------

글쎄, 뭐 그런.......

기타 휴식 3 시 5 분
Gm/g gm/d a t m/b gm gm / gm
E -------------------------------------------------------6-----------------------------
B -------------------------------------7--9--7--9----------9--7---------9--------------
G 8--9--8---------8----------------------------------------------------------8--16-----
D -----------11--------11--9-----------------------------------------------------------
A -------------------------------------------------------------------------------------
E -------------------------------------------------------------------------------------

참고 : 모든 가사들은 소유자의 재산권과 저작권이 있습니다. 교육 목적으로만 제공되는 모든 가사.
SPONSORED

댓글

Catatonia 가사집